Three Days Grace Online
Just Like You (Guitar Tab)

HOME

The Band
Tour
Discography
Lyrics
Tabs
Videos and Audio
Pictures
Extras
Links
Contact

Enter subhead content here

I tabbed this myself, if you have any corrections please send them to me.

Drop Db:
Db Ab Db Gb Bb Eb

Intro:
e---------------------------------------------------------------
b---------------------------------------------------------------
g---------------------------------------------------------------
d-9-7-4-0-9-9---9-7-4-0-9-9---9-7-4-0-9-9----7-----x-x-9--x-x-9-
a-9-7-4-0-9-9---9-7-4-0-9-9---9-7-4-0-9-9----5-----x-x-7--x-x-7-
d-9-7-4-0-9-9---9-7-4-0-9-9---9-7-4-0-9-9----5-----x-x-7--x-x-7-

Verse: (x2)
e---------------------------------------------------------------
b---------------------------------------------------------------
g---------------------------------------------------------------
d-9-7-4-0-9-9---9-7-4-0-9-9---9-7-4-0-9-9----7-----x-x-9--x-x-9-
a-9-7-4-0-9-9---9-7-4-0-9-9---9-7-4-0-9-9----5-----x-x-7--x-x-7-
d-9-7-4-0-9-9---9-7-4-0-9-9---9-7-4-0-9-9----5-----x-x-7--x-x-7-

Pre Chorus:
e---------------------------------------------------------------
b---------------------------------------------------------------
g-6~~~~~~~~~~-7~~~~~~~~~~-6~~~~~~~~~----------------------------
d-4-----------5-----------4-----------7--7--7--7---x-x-9--x-x-9-
a-4-----------5-----------4-----------5--5--5--5---x-x-7--x-x-7-
d-4-----------5-----------4-----------5--5--5--5---x-x-7--x-x-7-

Chorus: (x2)
e--------------------------------------------------
b--------------------------------------------------
g--------------------------------------------------
d-9----9--9--0----0--0--7-----7--7--10------10--10-
a-9----9--9--0----0--0--7-----7--7--10------10--10-
d-9----9--9--0----0--0--7-----7--7--10------10--10-

e--------------------------------------------------
b--------------------------------------------------
g--------------------------------------------------
d-9----9--9--0----0--0--7--7--7--7---x-x-9--x-x-9--
a-9----9--9--0----0--0--5--5--5--5---x-x-7--x-x-7--
d-9----9--9--0----0--0--5--5--5--5---x-x-7--x-x-7--

Verse: (x2)
e---------------------------------------------------------------
b---------------------------------------------------------------
g---------------------------------------------------------------
d-9-7-4-0-9-9---9-7-4-0-9-9----9-7-4-0-9-9----7----x-x-9--x-x-9-
a-9-7-4-0-9-9---9-7-4-0-9-9----9-7-4-0-9-9----5----x-x-7--x-x-7-
d-9-7-4-0-9-9---9-7-4-0-9-9----9-7-4-0-9-9----5----x-x-7--x-x-7-

Pre Chorus
e---------------------------------------------------------------
b---------------------------------------------------------------
g-6~~~~~~~~~~-7~~~~~~~~~~-6~~~~~~~~~----------------------------
d-4-----------5-----------4-----------7--7--7--7---x-x-9--x-x-9-
a-4-----------5-----------4-----------5--5--5--5---x-x-7--x-x-7-
d-4-----------5-----------4-----------5--5--5--5---x-x-7--x-x-7-

Chorus (x2)
e--------------------------------------------------
b--------------------------------------------------
g--------------------------------------------------
d-9-----9--9--0----0--0--7-----7--7--10-----10--10-
a-9-----9--9--0----0--0--7-----7--7--10-----10--10-
d-9-----9--9--0----0--0--7-----7--7--10-----10--10-

e--------------------------------------------------
b--------------------------------------------------
g--------------------------------------------------
d-9----9--9--0----0--0--7--7--7--7---x-x-9--x-x-9--
a-9----9--9--0----0--0--5--5--5--5---x-x-7--x-x-7--
d-9----9--9--0----0--0--5--5--5--5---x-x-7--x-x-7--

Bridge: (x2)
e----------------------------------------------------------
b----------------------------------------------------------
g----------------------------------------------------------
d-7--7--7--7--7--7--7--0--0--0--0--0--0--0--0---9--7--4--0-
a-5--5--5--5--5--5--5--0--0--0--0--0--0--0--0---9--7--4--0-
d-5--5--5--5--5--5--5--0--0--0--0--0--0--0--0---9--7--4--0-

e-----------------------------------------------------------
b-----------------------------------------------------------
g-----------------------------------------------------------
d-2--2--2--2--2--2--2--7---7--7--7--7--7--7--7--9--7--4--0--
a-2--2--2--2--2--2--2--7---7--7--7--7--7--7--7--9--7--4--0--
d-2--2--2--2--2--2--2--7---7--7--7--7--7--7--7--9--7--4--0--

Pre Chorus
e---------------------------------------------------------------
b---------------------------------------------------------------
g-6~~~~~~~~~~-7~~~~~~~~~~-6~~~~~~~~~----------------------------
d-4-----------5-----------4-----------7--7--7--7---x-x-9--x-x-9-
a-4-----------5-----------4-----------5--5--5--5---x-x-7--x-x-7-
d-4-----------5-----------4-----------5--5--5--5---x-x-7--x-x-7-

Chorus (x2)
e--------------------------------------------------
b--------------------------------------------------
g--------------------------------------------------
d-9----9--9--0-----0--0--7-----7--7--10-----10--10-
a-9----9--9--0-----0--0--7-----7--7--10-----10--10-
d-9----9--9--0-----0--0--7-----7--7--10-----10--10-

e--------------------------------------------------
b--------------------------------------------------
g--------------------------------------------------
d-9----9--9--0----0--0--7--7--7--7---x-x-9--x-x-9--
a-9----9--9--0----0--0--5--5--5--5---x-x-7--x-x-7--
d-9----9--9--0----0--0--5--5--5--5---x-x-7--x-x-7--

Outro:
e-------------------------------------------------------------
b-------------------------------------------------------------
g-------------------------------------------------------------
d-9-7-4-0-9-9---9-7-4-0-9-9---9-7-4-0-9-9----7----x-x-9--x-x-9
a-9-7-4-0-9-9---9-7-4-0-9-9---9-7-4-0-9-9----5----x-x-7--x-x-7
d-9-7-4-0-9-9---9-7-4-0-9-9---9-7-4-0-9-9----5----x-x-7--x-x-7

Enter supporting content here