Three Days Grace Online
I Hate Everything About You (Guitar Tab)

HOME

The Band
Tour
Discography
Lyrics
Tabs
Videos and Audio
Pictures
Extras
Links
Contact

I tabbed this one myself, if you have corrections please send them to me.

Guitar 1 (Acoustic)
E---------------------------------------------------------------
B---------------------------------------------------------------
G-----6--------6--------6-----6-----4-6----4-6---4-6---4-6------
D---4-6------4-6------4-6---4-6-----4-6----4-6---4-6---4-6------
A---4--------4--------4-----4-----0-------0-----0-----0---------
D-4------0-4------0-4------0-----0-------0-----0-----0----------
(Repeat until pre-chorus)

Pre-chorus: Guitar 2
E--------------------------------------------------0-------------
B--------------------------------------------------3-------------
G-4------------------------------------------------2-------------
D-2----------------------------------0-------------0-------------
A-2----------------------------------0-------------0-------------
D-2----------------------------------0-------------0-------------

Chorus (play twice)
E----------------------------------------------------------------
B----------------------------------------------------------------
G--6-6----6-6-----------9-9-9-9-9-9-------9-4-4-4-4-4-4----------
D--4-4----0-0-----------7-7-7-7-7-7-------7-2-2-2-2-2-2----------
A--4-4----0-0-----------7-7-7-7-7-7-------7-2-2-2-2-2-2----------
D--4-4----0-0-----------7-7-7-7-7-7-------7-2-2-2-2-2-2----------

E----------------------------------------------------------------
B----------------------------------------------------------------
G-6-6-6-6-6-6----6-6-6-6-6-6-6-------4-4-4-4-4-4---x-------------
D-4-4-4-4-4-4----4-0-0-0-0-0-0-------2-2-2-2-2-2---x-------------
A-4-4-4-4-4-4----4-0-0-0-0-0-0-------2-2-2-2-2-2---x--7----------
D-4-4-4-4-4-4----4-0-0-0-0-0-0-------2-2-2-2-2-2---x--7----6-----

Interlude (Clean) Along with intro riff in background
E-----------------------------------0---------------------------
B-----------------------------3-------3-------------------------
G--------------------------6------------6-----------------------
D---------------------------------------------------------------
A---------------------------------------------------------------
D---------------------------------------------------------------

chorus

Bridge (Distortion)
E--------------------------------------------------------------
B--------------------------------------------------------------
G-13-13-13-14---14-14-16-16--13-13-13-14--14-14-16-16----------
D--x--x--x--x----x--x--x--x---x--x--x--x---x--x--x--x----------
A-11-11-11-12---12-12-14-14--11-11-11-12--12-12-14-14----------
D--------------------------------------------------------------

E--------------------------------------------------------------
B--------------------------------------------------------------
G-13-13-13-14---14-14-16-16---13-13-13--14/13----9-------------
D--x--x--x--x----x--x--x--x----x--x--x---x-------x-------------
A-11-11-11-12---12-12-14-14---11-11-11--12/11----7-------------
D--------------------------------------------------------------

play this with the bridge (Distortion)

E--------------------------------------------------------------
B--------------------------------------------------------------
G--7-7-7-7----7-7-7---9-9-9-9----9-9-9---11-11-11-11---11-11-11
D--x-x-x-x----x-x-x---x-x-x-x----x-x-x----x--x--x--x----x--x--x
A--5-5-5-5----5-5-5---7-7-7-7----7-7-7----9--9--9--9----9--9--9
D--------------------------------------------------------------

E--------------------------------------------------------------
B--------------------------------------------------------------
G--9-9-9-9-9----9----------------------------------------------
D--x-x-x-x-x----x----------------------------------------------
A--7-7-7-7-7----7----------------------------------------------
D--------------------------------------------------------------

a little of the intro riff (acoustic) is played here

chorus

ends on:
E--
B--
G--
D--
A--
D-4

2004 Three Days Grace Online