Three Days Grace Online
Scared (Guitar Tab)

HOME

The Band
Tour
Discography
Lyrics
Tabs
Videos and Audio
Pictures
Extras
Links
Contact

I tabbed this myself, please send in any corrections you have.

Intro
|--------------------------------------------------------------------------|
|--------------------------------------------------------------------------|
|-----3-3-33-3-3-2---3-3-33-3-3-h5p2---------------------------------------|
|--------------------------------------------------------------------------|
|--------------------------------------------------------------------------|
|--------------------------------------------------------------------------|

Verse (play twice)
|--------------------------------------------------------------------------|
|--------------------------------------------------------------------------|
|--------------------------------------------------------------------------|
|-----5-5-5-5-5-5-0----5-5-5-5-5-5-0---------------------------------------|
|-----5-5-5-5-5-5-0----5-5-5-5-5-5-0---------------------------------------|
|-----5-5-5-5-5-5-0----5-5-5-5-5-5-0---------------------------------------|

this part x4
|--------------------------------------------------------------------------|
|--------------------------------------------------------------------------|
|--------------------------------------------------------------------------|
|---5---------------0----5-----------------0-------------------------------|
|---5---------------0----5-----------------0-------------------------------|
|---5---------------0----5-----------------0-------------------------------

|--------------------------------------------------------------------------|
|--------------------------------------------------------------------------|
|--------------------------------------------------------------------------|
|----1---1---1---1---8---8---8---8-----------------------------------------|
|----1---1---1---1---8---8---8---8-----------------------------------------|
|----1---1---1---1---8---8---8---8-----------------------------------------|

|--------------------------------------------------------------------------|
|--------------------------------------------------------------------------|
|--------------------------------------------------------------------------|
|-----5-5-5-5-5-5-0----5-5-5-5-5-5-0---------------------------------------|
|-----5-5-5-5-5-5-0----5-5-5-5-5-5-0---------------------------------------|
|-----5-5-5-5-5-5-0----5-5-5-5-5-5-0---------------------------------------|

|--------------------------------------------------------------------------|
|--------------------------------------------------------------------------|
|--------------------------------------------------------------------------|
|----1---1---1---1---8---8---8---8-----------------------------------------|
|----1---1---1---1---8---8---8---8-----------------------------------------|
|----1---1---1---1---8---8---8---7-----------------------------------------|

chorus
|--------------------------------------------------------------------------|
|--------------------------------------------------------------------------|
|-----------------------------5-5------------------------------5-5---------|
|---5---5-5-0---0-0-1---1-1-1-5-5--3-5---5-5-0---0-0-1---1-1-1-5-5-3-------|
|---5---5-5-0---0-0-1---1-1-1-3-3--3-5---5-5-0---0-0-1---1-1-1-3-3-3-------|
|---5---5-5-0---0-0-1---1-1-1------3-5---5-5-0---0-0-1---1-1-1-----3-------|

|--------------------------------------------------------------------------|
|--------------------------------------------------------------------------|
|-----------------------------5-5------------------------------5-5---------|
|---5---5-5-0---0-0-1---1-1-1-5-5--3-5---5-5-0---0-0-1---1-1-1-5-5-5-------|
|---5---5-5-0---0-0-1---1-1-1-3-3--3-5---5-5-0---0-0-1---1-1-1-3-3-7-------|
|---5---5-5-0---0-0-1---1-1-1------3-5---5-5-0---0-0-1---1-1-1-----7-------|

2004 Three Days Grace Online