Three Days Grace Online
Let You Down (Guitar Tab)

HOME

The Band
Tour
Discography
Lyrics
Tabs
Videos and Audio
Pictures
Extras
Links
Contact

I tabbed this myself, send in any corrections you have if there are mistakes.

Tuning: Dropped D, 1 step down (C,G,C,F,A,D)

Intro/Verse
|-------------------------------------------------
|-------------------------------------------------
|----------2---------2------2--------*2-----------
|-------0--------0------0---------*0--------------
|--5---------3------1----------*3-----------------
|-------------------------------------------------
*(play this only the 3rd time through the riff)

Chorus
|--0------------------------------------------
|--3------------------------------------------
|--2------------------------------------------
|--0--0---3-0-3----8-7-10--------------- (x3)
|--0--0---3-0-3----8-7-10---------------
|--0--0---3-0-3----8-7-10---------------

|--------------------------------------------
|--------------------------------------------
|--10------12-----------------------------
|--8-------10------------------------------
|--8-------10------------------------------
|--8-------10------------------------------

|--0------------------------------------------
|--3------------------------------------------
|--2------------------------------------------
|--0--0---3-0-3--x-x--x--x---8-7-10--- (x3)
|--0--0---3-0-3--x-x--x--x---8-7-10---
|--0--0---3-0-3--x-x--x--x---8-7-10---

|-----------------------------------------------
|-----------------------------------------------
|--10------12--------------------------------
|--8-------10---------------------------------
|--8-------10---------------------------------
|--8-------10---------------------------------

Verse
|-------------------------------------------------
|-------------------------------------------------
|----------2---------2------2--------*2-----------
|-------0--------0------0---------*0--------------
|--5---------3------1----------*3-----------------
|-------------------------------------------------
*(play this only the 3rd time through the riff)

Chorus
|--0------------------------------------------
|--3------------------------------------------
|--2------------------------------------------
|--0--0---3-0-3----8-7-10--------------- (x3)
|--0--0---3-0-3----8-7-10---------------
|--0--0---3-0-3----8-7-10---------------

|--------------------------------------------
|--------------------------------------------
|--10------12-----------------------------
|--8-------10------------------------------
|--8-------10------------------------------
|--8-------10------------------------------

|--0------------------------------------------
|--3------------------------------------------
|--2------------------------------------------
|--0--0---3-0-3--x-x--x--x---8-7-10--- (x3)
|--0--0---3-0-3--x-x--x--x---8-7-10---
|--0--0---3-0-3--x-x--x--x---8-7-10---

|-----------------------------------------------
|-----------------------------------------------
|--10------12--------------------------------
|--8-------10---------------------------------
|--8-------10---------------------------------
|--8-------10---------------------------------

Bridge (x2)
|-------------14-------------------17------------------------21-
|---12------------------14--------------------15----------------
|--------------------------------------------------------------------
|--------------------------------------------------------------------
|--------------------------------------------------------------------
|--------------------------------------------------------------------

|--------------------------------------------
|--------------------------------------------
|--------------------------------------------
|--0--9--7--5--4--0--------------------------
|--0--9--7--5--4--0--------------------------
|--0--9--7--5--4--0--------------------------

|------------------------------------------------
|------------------------------------------------
|--11----6----7----------------------------------
|--9-----4-----5--------0--9--7--5--4--0--------- (x2)
|--9-----4-----5--------0--9--7--5--4--0---------
|--9-----4-----5--------0--9--7--5--4--0---------

|----------------------------------------------
|----------------------------------------------
|--11----6-----7-------------------------------
|--9-----4-----5-------------------------------
|--9-----4-----5-------------------------------
|--9-----4-----5-------------------------------

|--------------------------------------------
|--------------------------------------------
|--------------------------------------------
|--0---------------0---------8--7--10--------
|--0---------------0---------8--7--10--------
|--0---------------0---------8--7--10--------

Chorus
|--0------------------------------------------
|--3------------------------------------------
|--2------------------------------------------
|--0--0---3-0-3----8-7-10--------------- (x3)
|--0--0---3-0-3----8-7-10---------------
|--0--0---3-0-3----8-7-10---------------

|--------------------------------------------
|--------------------------------------------
|--10------12-----------------------------
|--8-------10------------------------------
|--8-------10------------------------------
|--8-------10------------------------------

|--0------------------------------------------
|--3------------------------------------------
|--2------------------------------------------
|--0--0---3-0-3--x-x--x--x---8-7-10--- (x3)
|--0--0---3-0-3--x-x--x--x---8-7-10---
|--0--0---3-0-3--x-x--x--x---8-7-10---

|-----------------------------------------------
|-----------------------------------------------
|--10------12--------------------------------
|--8-------10---------------------------------
|--8-------10---------------------------------
|--8-------10---------------------------------

2004 Three Days Grace Online