Three Days Grace Online
Now Or Never (Guitar Tab)

HOME

The Band
Tour
Discography
Lyrics
Tabs
Videos and Audio
Pictures
Extras
Links
Contact

One of my old babysitters is in a band and he tabbed this for me. If you find a mistake please send in the correction.

Drop D:
D A D G B E

Intro:
Bsus2 D5
in this time, are we loving or do we sit here wondering

Esus2 G5
why this world isnt turning round its now or never

B5 D5 E5 G5 F#5 Asus
e----------------------------- -------------0----------
b----------------------------- -------------0----------
g-4--4------------------------ -------------2----------
d-4--4------------------------ -------------2----------
a-2--2--0----0h2-2----2---5--- (x3) -4--4--4--4--0----------
d-------0----0h2-2----2---5--- -4--4--4--4-------------

Verses:

G5 D5 Esus2 Asus2
we have no use, for the truth, nows the time for us to lose

G5 D5 Esus2
who we are and how we tried, taking every step in stride

Asus2
its now or never to decide

Chorus:

B5 D5 E5 G5 B5 D5 E5 G5
in this time, are we loving ... or do we sit here wondering

B5 D5 E5 G5 F#5 Asus2
why this world isnt turning round its now or never

B5 D5 E5 G5 B5 D5 E5 G5
in this world, are we learning or do we sit here yearning

B5 D5 E5 G5 F#5 Asus2
for this world to stop turning round its now or never

2nd Verse: same

Chorus

Intro

Chorus

Chords used:

e-------------------------------0-----------
b-------------------------------0-----------
g-------------------4-----------2-----------
d-11------5----0----4----4------2------9----
a--9------5----0----2----2------0------7----
d--9------5----0---------2-------------7----
Bsus2 G5 D5 B5 Esus2 Asus Asus2

2004 Three Days Grace Online