Three Days Grace Online
Born Like This (Guitar Tab)

HOME

The Band
Tour
Discography
Lyrics
Tabs
Videos and Audio
Pictures
Extras
Links
Contact

I tabbed this myself, send in any corrections.

Drop D Tuning

Intro
|--------------------------------------------
|--------------------------------------------
|--------------------------------------------
|-------------------------------------------- (x4)
|--------------------------------------------
|--0--0-0-2--2-3--6-6-6-6-5~-----------------
pm =================

Chorus
|-----------------------------------------
|-----------------------------------------
|-------4----5---8-8-8-8-7-7-7------------
|--0----2----3---6-6-6-6-5-5-5------------ (x4)
|--0----2----3---6-6-6-6-5-5-5------------
|--0----2----3---6-6-6-6-5-5-5------------

Verse (after two measures of the bass)
|--------------------------------------------------
|--------------------------------------------------
|--------------------------------------------------
|--0-0-0-0----0-0-0-0----0-0-0-0----0-0-0-0--------
|--0-0-0-0----0-0-0-0----0-0-0-0----0-0-0-0--------
|--0-0-0-0----0-0-0-0----0-0-0-0----0-0-0-0--------
pm =====================

Pre-chorus
|----------------------------------------------------
|----------------------------------------------------
|--12------9-------12----10-10-10-10-10-10-10-10-----
|--12------7-------12----10-10-10-10-10-10-10-10-----
|--10------7-------10----8--8--8--8--8--8--8--8------
|--10------7-------10----8--8--8--8--8--8--8--8------

|--------------------------------------------
|--------------------------------------------
|----10-10------10-10-10---------------------
|--x-10-10--x-x-10-10-10---1-----------------
|--x-8--8---x-x-8--8--8----1-----------------
|--x-8--8---x-x-8--8--8----1-----------------

Chorus
|-----------------------------------------
|-----------------------------------------
|-------4----5---8-8-8-8-7-7-7------------
|--0----2----3---6-6-6-6-5-5-5------------ (x4)
|--0----2----3---6-6-6-6-5-5-5------------
|--0----2----3---6-6-6-6-5-5-5------------

Verse
|--------------------------------------------------
|--------------------------------------------------
|--------------------------------------------------
|--0-0-0-0----0-0-0-0----0-0-0-0----0-0-0-0--------
|--0-0-0-0----0-0-0-0----0-0-0-0----0-0-0-0--------
|--0-0-0-0----0-0-0-0----0-0-0-0----0-0-0-0--------
pm =====================

Chorus
|-----------------------------------------
|-----------------------------------------
|-------4----5---8-8-8-8-7-7-7------------
|--0----2----3---6-6-6-6-5-5-5------------ (x4)
|--0----2----3---6-6-6-6-5-5-5------------
|--0----2----3---6-6-6-6-5-5-5------------

Pre-chorus
|----------------------------------------------------
|----------------------------------------------------
|--12------9-------12----10-10-10-10-10-10-10-10-----
|--12------7-------12----10-10-10-10-10-10-10-10-----
|--10------7-------10----8--8--8--8--8--8--8--8------
|--10------7-------10----8--8--8--8--8--8--8--8------

|--------------------------------------------
|--------------------------------------------
|----10-10------10-10-10---------------------
|--x-10-10--x-x-10-10-10---1-----------------
|--x-8--8---x-x-8--8--8----1-----------------
|--x-8--8---x-x-8--8--8----1-----------------

Intro
|--------------------------------------------
|--------------------------------------------
|--------------------------------------------
|-------------------------------------------- (x4)
|--------------------------------------------
|--0--0-0-2--2-3--6-6-6-6-5~-----------------
pm =================

Chorus

2004 Three Days Grace Online