Three Days Grace Online
Drown (Guitar Tab)

HOME

The Band
Tour
Discography
Lyrics
Tabs
Videos and Audio
Pictures
Extras
Links
Contact

I tabbed this myself, send in any corrections you have.

Tuning: 1 steps down. (B, F#, B, E, G#, C#)

Intro
|-------------------------------------------------------------
|-------------------------------------------------------------
|-------------------------------------------------------------
|-------------------------------------------------------------
|-------------------------------------7----7h8-------------
|--0--0h3-0h3-0h5-0h2-2--/8--8--7-7h8----7-----

|-------------------------------------------------------------
|-------------------------------------------------------------
|-------------------------------------------------------------
|-------------------------------------------------------------
|-------------------------------------------------------------
|--0--0h3-0h3-0h5-0h2-2--/8--8--7-7-7-8-8--8--


Verse
|--------------------------------------------------
|--------------------------------------------------
|--------------------------------------------------
|--0-------------------0-----------------10--------
|--0-------------------0-----------------10--------
|--0-------------------0-----------------10--------


Chorus
|-------------------------------------------------
|-------------------------------------------------
|-------------------------------------------------
|--0-------8-------3-------7------10--10---------- x3
|--0-------8-------3-------7------10--10----------
|--0-------8-------3-------7------10--10----------

|-----------------------------------
|-----------------------------------
|-----------------------------------
|--0-------8-------3-------7--------
|--0-------8-------3-------7--------
|--0-------8-------3-------7--------

Intro

Verse

Chorus

Intro

|------------------------------------------------------------
|------------------------------------------------------------
|------------------------------------------------------------
|-----------------------------------------------10-----------
|-----------------------------------------------10-x20-------
|--0--0h3-0h3-0h5-0h2-2--/8--8--7-7-7-7-7-7-7---10-----------

Bridge (Chorus)

Chorus

End with:
|--------------------------------------------
|--------------------------------------------
|--------------------------------------------
|--------------------------------------------
|------7----7h8---------7----7h8-------------
|--7h8----7---------7h8----7-----------------

2004 Three Days Grace Online