Three Days Grace Online
Overrated (Guitar Tab)

HOME

The Band
Tour
Discography
Lyrics
Tabs
Videos and Audio
Pictures
Extras
Links
Contact

A friend of mine did this tab, contact me with any corrections.

Intro
|---------------------------------------------------
|---------------------------------------------------
|---------------------------------------------------
|---------------------------------------------------
|-----------8-7----10-8-7---------------------------
|--0-8-7-0------7----------7-10-8-7-8---------------

Verse (x5)
|---------------------------------------------------------------------------
|----------------------------------------------------------------------------
|----------------------------------------------------------------------------
|--7---7---7-----5---5-----------------7---7---7----5--5---------------------
|--5---5---3-----7---7/-5---------0-3/-7-------3----7--7/-5-------0-3--------
|--0----------------------------3------0------------------------3------------

Chorus
|--------------------------------------------
|--------------------------------------------
|--------------------------------------------
|--0-0---10-10---5-5---3---------------------
|--0-0---10-10---5-5---3------0-3------------
|--0-0---10-10---5-5---3----3----------------

Pre-verse
|-------------------------------------------------------------
|--5-6--5-6--5-6--5-6--5-6--5-6--5-6--5-6---------------------
|-------------------------------------------------------------
|-------------------------------------------------------------
|-------------------------------------------------------------
|-------------------------------------------------------------

Verse (x4)
Gtr.1
|----------------------------------------------------------------------------
|----------------------------------------------------------------------------
|----------------------------------------------------------------------------
|--7---7---7-----5---5------------------7---7---7----5--5--------------------
|--5---5---3-----7---7/-5----------0-3/-7-------3----7--7/-5-------0-3-------
|--0-----------------------------3------0------------------------3-----------

Chorus

Bridge
|---------------------------------------------
|---------------------------------------------
|---------------------------------------------
|--0------------------------------------------
|--0------------------------------------------
|--0------------------------------------------

Intro Riff (palm muted the first two times)

Chorus

End With (and use whammy bar to slowly lower the pitch with each strum)
|---------------------------------------------------------------------------
|---------------------------------------------------------------------------
|---------------------------------------------------------------------------
|--0--0--0--0--0--0--0--0--0--0--0--0--0--0--0--0--0--0--0--0---------------
|--0--0--0--0--0--0--0--0--0--0--0--0--0--0--0--0--0--0--0--0---------------
|--0--0--0--0--0--0--0--0--0--0--0--0--0--0--0--0--0--0--0--0---------------

2004 Three Days Grace Online